Modlitwa III (Pozwól mi)

Opinie i rozważania na temat Dżemowych utworów

Moderatorzy: Piotrek, Radek

Gość

Modlitwa III (Pozwól mi)

Postautor: Gość » pt paź 16, 2009 6:24 pm

Poszukuje tabulatury gitarowej do solówek z tej piosenki ale nigdzie nie mogę znaleźć ;<
Z góry dzięki za odpowiedzi :D
Gość

Re: Modlitwa III (Pozwól mi)

Postautor: Gość » pt paź 16, 2009 6:30 pm

Moim zdaniem to nie znajdziesz i nie dostaniesz nigdzie, ale moge sie mylic
Gość

Re: Modlitwa III (Pozwól mi)

Postautor: Gość » pt paź 16, 2009 6:57 pm

http://www.youtube.com/watch?v=2aNmHRXX8L8
jedynie to Ci moge polecic... nie jest to perfekcyjnie ladnie zagrane ale koles chyba gra rowno z Jurkiem (chyba on ta solowke gral, tak on, ostatnia gral Adas)... moze ktos sie pokusi o rozpisanie tego co ten koles gra?
Gość

Re: Modlitwa III (Pozwól mi)

Postautor: Gość » pt paź 16, 2009 7:47 pm

kiedys mialem tabulatury. Amatorskie bo amatorskie .. postaram sie odszukac...
Gość

Re: Modlitwa III (Pozwól mi)

Postautor: Gość » sob paź 17, 2009 8:18 am

Dzięki wszystkim za odpowiedzi :D Szczerze mówiąc nie spodziewąłem sie że ktos sie tym zainteresuje ale jak widać sie myliłem :) Gdyby komuś udało sie odnaleźć/rozpisać tę tabulaturę byłbym bardzo bardzo wdzięczny :D
Maciek90
Posty: 144
Rejestracja: pn lut 25, 2008 4:36 pm
Lokalizacja: rzeszów

Re: Modlitwa III (Pozwól mi)

Postautor: Maciek90 » sob paź 17, 2009 12:42 pm

ja bym wam rozpissał, tylko ze nie umiem ;/
Gość

Re: Modlitwa III (Pozwól mi)

Postautor: Gość » sob paź 17, 2009 1:51 pm

Mam jeszcze 1 prośbe A mianowicie o tabulaturę do zagrywek między zwrotkami i solówki Koszmarnej nocy i solówki z Listu do M ale tej granej pod koneic :D Jeżeli ktos ma bardzo prosze o udostępnienie nie oczywiście temat Modlitwy III nadal aktualny :D
Gość

Re: Modlitwa III (Pozwól mi)

Postautor: Gość » sob paź 17, 2009 2:20 pm

juz wiem co mi tutaj nie pasowalo

e-----------------------------------------------------------------
h-----------------------------------------------------------------
g-----------------------------------------------------------------
d-------4--5-4-5--7B-7B7-5\4--5p4-----4-5/7B~~--4-5-7----
a--5/7---------------------------------7-----------------------
e-----------------------------------------------------------------

Motyw po drugiej zwrotce w wyższej pozycji przed solówką

e--------------------------------------------------------------------------
h-------7--8-7-8--10B-10B10-8\7--8p7----7-8-10B~~---7-8-10------
g--7/9-------------------------------------9----------------------------
d-------------------------------------------------------------------------
a-------------------------------------------------------------------------
e-------------------------------------------------------------------------

Po solówce Chłopaki grają szybciej i skracają trochę ten motywik. Tak wygląda w najwyższej pozycji niedługo przed zakończeniem utworu

e-----------14--15-14-15--17B-17B17-15\14--15p14-------14b14----------
h--15/17---------------------------------------------------17---------15-------
g----------------------------------------------------------------------------------
d----------------------------------------------------------------------------------
a----------------------------------------------------------------------------------
e----------------------------------------------------------------------------------


viewtopic.php?f=36&t=253&st=0&sk=t&sd=a&start=330

wystarczy poszperac.... niestety solowek nie znajdziesz tak latwo... zreszta nigdy Jurek ani Adas nie zagrali identycznej, wiec zostaje improwizacja, co do Listu mam gdzies peirwsza i druga, ostatniej niestety nie mam...

jezeli chcesz tez mam zwrotke do Koszmarnej mojego autorstwa... rozpisana oczywiscie na tabki nie same akordy...
Gość

Re: Modlitwa III (Pozwól mi)

Postautor: Gość » sob paź 17, 2009 3:58 pm

Dzięki :d Dodaj jeszcze tę zwrotkę Koszmarnej nocy Twojego autorstwa :D
Gość

Re: Modlitwa III (Pozwól mi)

Postautor: Gość » sob paź 17, 2009 4:30 pm

E---------------0-----------------0---2-2h3p2---------
H---------------0-----------------1---3-------3-------
G---------------0--------------0--0---2---------2-----
D------0h2-----2--2---------2--------------------0----
A--0h2---------2-----2----3---------------------------
E-----------0-----------------------------------------

E---2---2h3-------------<12>------------------
H---3---3---------------<12>------------------
G---2---2------0--------<12>------------------
D------------2---------------------------------
A----------2-----------------------------------
E----------------------------------------------

Ref:
muszę pomyśleć.... a H 2x
e C D h C D

<12> - flazolet na 12 progu...
Gość

Re: Modlitwa III (Pozwól mi)

Postautor: Gość » pn paź 19, 2009 2:50 pm

Dzięki za koszmarną noc ;) Może jednak ktoś da rade rozpisać ta solówke ;> ?
Gość

Re: Modlitwa III (Pozwól mi)

Postautor: Gość » pn paź 19, 2009 2:51 pm

a nie mozesz improwizowac? to jest w skali molowej e...

Wróć do „Twórczość”



Kto jest online

Użytkownicy przeglądający to forum: Obecnie na forum nie ma żadnego zarejestrowanego użytkownika i 2 gości